evansnoname

Δευ Οκτ 23, 2017
 
ΕικονοθήκηΦόρουμΗμερολόγιοΣυχνές ΕρωτήσειςΑναζήτησηΚατάλογος ΜελώνΟμάδες ΜελώνΕγγραφήΣύνδεση
E V A N S N O N A M E
   RADIO


Μοιραστείτε | 
 

 ροκ εν ρολ στο κρεβατι - σιδηροπουλος

Επισκόπηση προηγούμενης Θ.Ενότητας Επισκόπηση επόμενης Θ.Ενότητας Πήγαινε κάτω 
ΣυγγραφέαςΜήνυμα
????????
Επισκέπτης



ΔημοσίευσηΘέμα: ροκ εν ρολ στο κρεβατι - σιδηροπουλος   Κυρ Νοε 21, 2010 12:55 pm

--------------------------------------------
---------------------------------------------
---------------------------------------------
-2---2-2-2-2-2-2---2---2-2-2-2-2---5---7-----
-2---2-2-2-2-2-2---2---2-2-2-2-2---5---7-----
-0---0-0-0-0-0-0---0---0-0-0-0-0---3---5-----

E G A E
Γουστάρω να σ' ακούω κούκλα μου όταν μιλάς

---10\12---12-10-----12b----
-8---------------12---------
----------------------------
----------------------------
----------------------------
----------------------------

E G A E
να αλληθωρίζουν μάτια όταν στην πίστα πηδάς

-------------------
-------------------
-9br---12-12/9-----
-------------------
-------------------
-------------------

E G A E
γουστάρω όταν ακούω αχ τι παιδί είναι αυτό

----------------------------
----------------------------
-----7h9p7h9p7h9p7h9p7/4----
-(9)------------------------
----------------------------
----------------------------

E G A E
γιατί εσύ ξέρεις στο κρεβάτι τι θα πει ροκ εντ ρολ

-------------------
-------------------
-9br----12/9-------
-------------------
-------------------
-------------------

B
Στα σκοτεινά δωμάτια είν' η ψυχή μας γυμνή
και δεν χωράν εκεί μυστικά

----7---------------
------10------------
-9b------9-7br------
--------------------
--------------------
--------------------

και συ μονάχα ξέρεις πως η αλήθεια είναι εκεί

-------7---------
---------10b-----
-----7-----------
-(9)-------------
-----------------
-----------------

C D E
που η μοναξιά μου στον καθρέφτη κοιτά

-10\12---12-10------------
---------------12-10--8---
--------------------------
--------------------------
--------------------------
--------------------------

Γουστάρω που όταν κλαίω δεν ρωτάς το γιατί

----------------
-10br--10-------
----------9/----
----------------
----------------
----------------

γιατί εσύ ξέρεις πως ο πόνος μου έχει αιτία τυφλή

---------12--------15br--15br/----
-12-15b-----15-12-----------------
----------------------------------
----------------------------------
----------------------------------
----------------------------------

Γουστάρω σαν γατούλα μου όταν παίζεις κρυφτό

----------------------------
----------------------------
-----7h9p7h9p7h9p7h9p7/4----
-(9)------------------------
----------------------------
----------------------------

κι όταν φοβάμαι μη σε χάσω να μου λες σ' αγαπώ

------------------------------
-10b--8-10-10b-8------8-10----
-----------------9------------
------------------------------
------------------------------
------------------------------

B
Στα σκοτεινά δωμάτια είν' η ψυχή μας γυμνή
και δεν χωράν εκεί μυστικά
και συ μονάχα ξέρεις πως η αλήθεια είναι εκεί
C D E
που η μοναξιά μου στον καθρέφτη κοιτά

Solo:
(--A.H.--)
-10\12----10-12-10-12---12-10-12----------------------------------------------
------------------------------------------5-3b--------------------------------
------------------------------------------------2br--0------------------------
--------------------------------------------------------2-------2-----2----2--
------------------------------------------------------------------------------
-----------------------------------12/-----------------------3b----3b----3b---

------------------------------------------------------------------------------
------------------------------------------------------------------------------
---------7----7-6----------9-----7\9--9-9-9\11--11\12/11-9---7h9p7--6h7-------
-2----9-----------9-7---------------------------------------------------------
-----------------------10b----------------------------------------------------
------------------------------------------------------------------------------

t t t
---------------------------------------------------------------0h3p0h2p0------
---------------------------------------------------3-5-----5-------------3p0--
-6h7p6-----------9--7b---9--7b---9---------------4------4---------------------
--------7\9--------------------------7\9/7/5----------------------------------
------------------------------------------------------------------------------
------------------------------------------------------------------------------

t t
-0h3p0h5p3/2------------17p14------17p14------17p14---------------------------
-------------3b-----17b--------17b--------17b----------15-17-----15--------15-
--------------------------------------------------------------16------16------
------------------------------------------------------------------------------
------------------------------------------------------------------------------
------------------------------------------------------------------------------

t t t t t t t t
-19p14-19p14-19p14-19p14-19p14-19p14-19p14-19p14----19--14---19b--------------
------------------------------------------------------------------------------
------------------------------------------------------------------------------
------------------------------------------------------------------------------
------------------------------------------------------------------------------
------------------------------------------------------------------------------

E E D B A G
Το ξέρω πως δεν είμαι αυτός που πάνω του θα στηριχτείς
E E D B A G
Ούτε λεφτάς κι ίσως γυρνάς πιωμένος μες τα μπαρ να με βρεις
E E D B A G
όμως εγώ θα σου μετρώ της πόλης το σφυγμό με αγκαλιές
E E D B A G
θα σου χαϊδεύω το λαιμό με χίλιες και μια νύχτα γλυκές

Στα σκοτεινά δωμάτια είν' η ψυχή μας γυμνή
και δεν χωράν εκεί μυστικά
κι εκεί να σ' αγαπάω ξέρω κούκλα μου εκεί
τη μοναξιά μου στον καθρέφτη όταν σπας

t t t t
-------------------------12-15p12-15p12-15p12-15p12-----12----
-15br--12------------15b--------------------------------------
----------14br-12---------------------------------------------
--------------------------------------------------------------
--------------------------------------------------------------
--------------------------------------------------------------

Επιστροφή στην κορυφή Πήγαινε κάτω
 
ροκ εν ρολ στο κρεβατι - σιδηροπουλος
Επισκόπηση προηγούμενης Θ.Ενότητας Επισκόπηση επόμενης Θ.Ενότητας Επιστροφή στην κορυφή 
Σελίδα 1 από 1

Δικαιώματα σας στην κατηγορία αυτήΔεν μπορείτε να απαντήσετε στα Θέματα αυτής της Δ.Συζήτησης
evansnoname :: Your first category :: GREEK SONGS-
Μετάβαση σε: